AnasayfaAnasayfa  PortalliPortalli  GaleriGaleri  SSSSSS  AramaArama  Kayıt OlKayıt Ol  Üye ListesiÜye Listesi  Kullanıcı GruplarıKullanıcı Grupları  Giriş yap  

Paylaş | 
 

 EVANESCENCE-Bring me to life...

Önceki başlık Sonraki başlık Aşağa gitmek 
YazarMesaj
babyish
EMREAYDIN(FAN)-kROCKer
EMREAYDIN(FAN)-kROCKer
avatar

Mesaj Sayısı : 142
Yaş : 26
Kayıt tarihi : 27/05/07

MesajKonu: EVANESCENCE-Bring me to life...   Çarş. Haz. 06, 2007 5:18 am

e|--------------------------------------------------------|
B|--------------------------------------------------------|
D|--------------------------------------------------------| Intro
G|--2--2-2----2--2--2-2-----------------------------------|
A|--2--2-2----2--2--2-2-----------------------------------|
E|--0--0-0----0--0--0-0-----------------------------------|



e|--------------------------------------------------------|
B|--------------------------------------------------------| Riff 1
D|--------------------------------------------------------|
G|--2-2--2-2--2-2--2-2----2-2--2-2--2-2--2-2----2---------| Play
A|--2-2--2-2--2-2--2-2----2-2--2-2--2-2--2-2--------------| x4
E|--0-0--0-0--0-0--0-0----0-0--0-0--0-0--0-0--0-----------|
^


e|--------------------------------------------------------|
B|--------------------------------------------------------|
D|--------------------------------------------------------| Chorus
G|--2--2--2--2--5--5--5--5--0--0--0--0--2--2--2--2--------| x2
A|--2--2--2--2--5--5--5--5--0--0--0--0--2--2--2--2--------|
E|--0--0--0--0--3--3--3--3--------------0--0--0--0--------|



e|--------------------------------------------------------|
B|--------------------------------------------------------|
D|--------------------------------------------------------| Riff 2
G|--2-2--2-2--2-2--2-2------2-----------------------------|
A|--2-2--2-2--2-2--2-2------------------------------------|
E|--0-0--0-0--0-0--0-0--0-0-------------------------------|
^ ^


e|--------------------------------------------------------|
B|--------------------------------------------------------| Riff 3
D|--------------------------------------------------------|
G|--2-2--2-2--2-2--2-2--2-2-2----2-2--2-2--2-2--2-2----2--| Play
A|--2-2--2-2--2-2--2-2--2-2-2----2-2--2-2--2-2--2-2-------| x4
E|--0-0--0-0--0-0--0-0--0-0-0----0-0--0-0--0-0--0-0--0----|
^


e|--------------------------------------------------------|
B|--------------------------------------------------------|
D|--------------------------------------------------------| Chorus
G|--2--2--2--2--5--5--5--5--0--0--0--0--2--2--2--2--------| x2
A|--2--2--2--2--5--5--5--5--0--0--0--0--2--2--2--2--------|
E|--0--0--0--0--3--3--3--3--------------0--0--0--0--------|


Interlude:
e|--------------------------------------------------------|
B|--------------------------------------------------------|
D|--------------------------------------------------------| Interlude 1
G|--5-5--5\-5--5-5-5---7-7--7\-7--7-7-7---------------|
A|--3-3--3\-3--3-3-3---5-5--5\-5--5-5-5---------------|
E|--------------------------------------------------------|
^ ^ ^ ^ ^ ^ ^ ^


e|--------------------------------------------------------|
B|--------------------------------------------------------|
D|--------------------------------------------------------| Interlude 2
G|--2-2--2-2--2-2--2-2--2-2-2----2-2--2-2--2-2--2-2--2-2--|
A|--2-2--2-2--2-2--2-2--2-2-2----2-2--2-2--2-2--2-2--2-2--|
E|--0-0--0-0--0-0--0-0--0-0-0----0-0--0-0--0-0--0-0--0-0--|



e|--------------------------------------------------------|
B|--------------------------------------------------------|
D|--------------------------------------------------------| Interlude 1
G|--5-5--5\-5--5-5-5---7-7--7\-7--7-7-7---------------|
A|--3-3--3\-3--3-3-3---5-5--5\-5--5-5-5---------------|
E|--------------------------------------------------------|
^ ^ ^ ^ ^ ^ ^ ^


e|--------------------------------------------------------|
B|--------------------------------------------------------|
D|--------------------------------------------------------| Interlude 3
G|--2-2--2-2--2-2--2-2--2-2-2-----------------------------|
A|--2-2--2-2--2-2--2-2--2-2-2-----------------------------|
E|--0-0--0-0--0-0--0-0--0-0-0-----------------------------|



e|--------------------------------------------------------|
B|--------------------------------------------------------|
D|--------------------------------------------------------| Interlude 4
G|--------------5---------------------------5-------------|
A|-----------2--3----5----4--5-----------2--3----5----4---|
E|--0--2--3----------3----2--3--0--2--3----------3----2---|
End Interlude (Let Ring...)


e|--------------------------------------------------------|
B|--------------------------------------------------------| Riff 3
D|--------------------------------------------------------|
G|--2-2--2-2--2-2--2-2--2-2-2----2-2--2-2--2-2--2-2----2--| Play
A|--2-2--2-2--2-2--2-2--2-2-2----2-2--2-2--2-2--2-2-------| x3
E|--0-0--0-0--0-0--0-0--0-0-0----0-0--0-0--0-0--0-0--0----|
^


e|--------------------------------------------------------|
B|--------------------------------------------------------|
D|--------------------------------------------------------| Riff 4
G|--2-2--2-2--2-2--2-2--2-2-2----2-2--2-2--2-2--2-2-------|
A|--2-2--2-2--2-2--2-2--2-2-2----2-2--2-2--2-2--2-2--\--|
E|--0-0--0-0--0-0--0-0--0-0-0----0-0--0-0--0-0--0-0--\--|



e|--------------------------------------------------------|
B|--------------------------------------------------------|
D|--------------------------------------------------------| Chorus
G|--2--2--2--2--5--5--5--5--0--0--0--0--------------------|
A|--2--2--2--2--5--5--5--5--0--0--0--0------------\-----|
E|--0--0--0--0--3--3--3--3------------------------\-----|



e|--------------------------------------------------------|
B|--------------------------------------------------------|
D|--------------------------------------------------------| Chorus
G|--2--2--2--2--5--5--5--5--0--0--0--0--2--2--2--2--------|
A|--2--2--2--2--5--5--5--5--0--0--0--0--2--2--2--2--------|
E|--0--0--0--0--3--3--3--3--------------0--0--0--0--------|



e|--------------------------------------------------------|
B|--------------------------------------------------------|
D|--------------------------------------------------------|
G|--5-5--5-5--5-5--5-5--5-5-5--5-5--5-5--5-5--5-5--5-5-5--|
A|--3-3--3-3--3-3--3-3--3-3-3--5-5--5-5--5-5--5-5--5-5-5--|
E|--------------------------------------------------------|
^ ^ ^ ^ ^ ^ ^ ^ ^ ^

e|--------------------------------------------------------|
B|--------------------------------------------------------|
D|--------------------------------------------------------| Interlude
G|--2-2--2-2--2-2--2-2--2-2-2-----------------------------|
A|--2-2--2-2--2-2--2-2--2-2-2-------------2---------------|
E|--0-0--0-0--0-0--0-0--0-0-0----0--2--3------------------|



e|--------------------------------------------------------|
B|--------------------------------------------------------|
D|--------------------------------------------------------|
G|--5-5--5-5--5-5--5-5--5-5-5--5-5--5-5--5-5--5-5--5-5-\|
A|--3-3--3-3--3-3--3-3--3-3-3--5-5--5-5--5-5--5-5--5-5-\|
E|--------------------------------------------------------|
^ ^ ^ ^ ^ ^ ^ ^ ^ ^


e|--------------------------------------------------------|
B|--------------------------------------------------------|
D|--------------------------------------------------------| End
G|--2-----------------------------------------------------|
A|--2-----------------------------------------------------|
E|--0-----------------------------------------------------|
(Let Ring...)
Sayfa başına dön Aşağa gitmek
Kullanıcı profilini gör
babyish
EMREAYDIN(FAN)-kROCKer
EMREAYDIN(FAN)-kROCKer
avatar

Mesaj Sayısı : 142
Yaş : 26
Kayıt tarihi : 27/05/07

MesajKonu: Geri: EVANESCENCE-Bring me to life...   Çarş. Haz. 06, 2007 5:19 am

Bring Me To Life
Evanescense


how can you see into my eyes like open doors

leading you down into my core

where I’ve become so numb

without a soul my spirit sleeping somewhere cold
Em
until you find it there and lead it back home


(Wake me up)
Em
Wake me up inside

(I can’t wake up)
G
Wake me up inside

(Save me)
D
call my name and save me from the dark

(Wake me up)
Em
bid my blood to run

(I can’t wake up)
G
before I come undone

(Save me)
D
save me from the nothing I’ve become
Em
Em
now that I know what I’m without
you can't just leave me
breathe into me and make me real
bring me to life

(Wake me up)
Em
Wake me up inside

(I can’t wake up)
G
Wake me up inside

(Save me)
D
call my name and save me from the dark

(Wake me up)
Em
bid my blood to run

(I can’t wake up)
G
before I come undone

(Save me)
D
save me from the nothing I’ve become
Em

(Bring me to life)
C D Em
I’ve been living a lie, there’s nothing inside
(Bring me to life)
C D Em

frozen inside without your touch without your love darling only you are the life among the dead
Am Em D Em G Am Em D Em

Em
all this time I can't believe I couldn't see
kept in the dark but you were there in front of me
I’ve been sleeping a thousand years it seems
got to open my eyes to everything
without a thought without a voice without a soul
don't let me die here
there must be something more
bring me to life

(Wake me up)
Wake me up inside
(I can’t wake up)
Wake me up inside
(Save me)
call my name and save me from the dark
(Wake me up)
bid my blood to run
(I can’t wake up)
before I come undone
(Save me)
save me from the nothing I’ve become

(Bring me to life)
I’ve been living a lie, there’s nothing inside
(Bring me to life)
Sayfa başına dön Aşağa gitmek
Kullanıcı profilini gör
 
EVANESCENCE-Bring me to life...
Önceki başlık Sonraki başlık Sayfa başına dön 
1 sayfadaki 1 sayfası

Bu forumun müsaadesi var:Bu forumdaki mesajlara cevap veremezsiniz
 :: Gitar / Tab-
Buraya geçin: