AnasayfaAnasayfa  PortalliPortalli  GaleriGaleri  SSSSSS  AramaArama  Kayıt OlKayıt Ol  Üye ListesiÜye Listesi  Kullanıcı GruplarıKullanıcı Grupları  Giriş yap  

Paylaş | 
 

 EVANESCENCE-My immortal...

Önceki başlık Sonraki başlık Aşağa gitmek 
YazarMesaj
babyish
EMREAYDIN(FAN)-kROCKer
EMREAYDIN(FAN)-kROCKer
avatar

Mesaj Sayısı : 142
Yaş : 26
Kayıt tarihi : 27/05/07

MesajKonu: EVANESCENCE-My immortal...   Çarş. Haz. 06, 2007 5:21 am

My Immortal
Evanescense


İlk Bölüm


Riff 1 Riff 2

e----------------------------| e---------------------|
B----------------2-----------| B----2--------2-------|
G----------3-----------3-----| G----------3-----3----|
D-------3-----3-----3-----3--| D-------3----------3--|
A----1-----------------------| A---------------------|
E----------------------------| E---------------------|


1 1 1
I'm so tired of being here,
1
Supressed by all my childish fears,
1
And if you have to leave,
1
I wish that you would just leave,
1
Because your presence still lingers here,
1 2
And it won't leave me alone.


Pre-Nakarat 1:


Riff 3

1st part 2nd part 3rd part
e----------------------------|-----------------------2--|-------------------------------|
B----------3-------5--3--1---|--------5-----------2-----|-------------------------------|
G-------2-------2--4--2--0---|-----3--4--------2--------|---------------------2--------5|
D----0-------0---------------|--2-----------2-----------|---1-----1--1-----2--------4---|
A-0--------------------------|-----------2--------------|---1--1-----1--1--------3------|
E----------------------------|--------------------------|-------------------------------|

3.1
These wounds won't seem to heal,
3.2
This pain is just too real,
3.3
There's just too much that time cannot erase.



Nakarat:

Bm G Em Riff 4
e--1--| e--3--| e--0--| e-----------------|
B--2--| B--3--| B--0--| B--2--------------|
G--3--| G--0--| G--0--| G-----3-----------|
D--3--| D--0--| D--2--| D--------3--------|
A--1--| A--2--| A--2--| A-----------1-----|
E--1--| E--3--| E--0--| E--------------0--|


Bm G Em
When you cried, I'd wipe away all of your tears,
Bm G Em
When you'd scream, I'd fight away all of your fears,
Bm G Em
And I've held your hand through all of these years,
Bm 4
That you still have... all of me.


İkinci Bölüm

1
You used to captivate me,
1
By your resonating light,
1 1
But now I'm bound by the life you left behind,
1 1
Your face it haunts my once pleasant dreams,
1 1 2
Your voice it chased away all the sanity in me.



Pre-Nakarat 2 (Pre-Nakarat 1 'in aynısı)


Nakarat (aynı akorları tekrar)


Köprü


Bm G Em D C
e--1--| e--3--| e--0--| e--3--| e--0--|
B--2--| B--3--| B--0--| B--2--| B--1--|
G--3--| G--0--| G--0--| G--3--| G--0--|
D--3--| D--0--| D--2--| D--0--| D--2--|
A--1--| A--2--| A--2--| A--x--| A--3--|
E--1--| E--3--| E--0--| E--x--| E--0--|


Em G Bm Em
I've tried so hard to tell myself that you're gone,
Em Bm
And though you're still with me,
D C
I've been alone all along.


Solo (keman)

e-------------------------------------------------------------------------------------|
B--9h11p9--11--13--13--11--9--8h10h11--11p10p8--13--13--11--9--8h10h11--11p10p8---11~~|
G-------------------------------------------------------------------------------------|
D-------------------------------------------------------------------------------------|
A-------------------------------------------------------------------------------------|
E-------------------------------------------------------------------------------------|


Nakarat (akorları tekrarla ve aşağıdaki bölümle bitir)


e---------------------------|
B--------------7------------|
G--------8-----------8------|
D-----8-----8-----8-----8---|
A--6------------------------|
E---------------------------|
Sayfa başına dön Aşağa gitmek
Kullanıcı profilini gör
babyish
EMREAYDIN(FAN)-kROCKer
EMREAYDIN(FAN)-kROCKer
avatar

Mesaj Sayısı : 142
Yaş : 26
Kayıt tarihi : 27/05/07

MesajKonu: Geri: EVANESCENCE-My immortal...   Çarş. Haz. 06, 2007 5:21 am

My Immortal
Evanescense
bas....

------5-0-9-0-5-0------5---9~~~>--
----5---------------5----5--------
--7---------------7---------------
----------------------------------
intro ve "i am so tired of being here blablabla" arpeji



-2---2-5-4-2-0-----2-4--5--------4--9--5-7-9----9-7---9
---2-------------4------7-7--6-7---10--7-9-10---9-7-7-7
-2---------------6------6-6--6-----11------11---9-7-0--
--------------------------7------------------11--------
"these wounds wont seem to heal"



----5-4-5-2------5-0---5-4------------
-8--7-6-7-4----5-----------5-4--6-----
-6-----------7-------4----------------
--------------------------------0-0-0-
"you cry i wipe away all of your bla bla"



solo:distörşınlı bas
-17^-14-14~~~>14-17-16-12-12--17-16-14-12-17-14-14^-
----------------------------------------------------
----------------------------------------------------
----------------------------------------------------

14-17-16-19-21-19-21h23h24-21h23h24-21h23h24-24^^-24-21-19-18-19^
-----------------------------------------------------------------
-----------------------------------------------------------------
-----------------------------------------------------------------


distörşınlı:
-----17-16-19-19-17-16-17-16-14
--19---------------------------
-------------------------------
-------------------------------
"you cry i wipe away.."



~~~>uzatma
^ bend
Sayfa başına dön Aşağa gitmek
Kullanıcı profilini gör
babyish
EMREAYDIN(FAN)-kROCKer
EMREAYDIN(FAN)-kROCKer
avatar

Mesaj Sayısı : 142
Yaş : 26
Kayıt tarihi : 27/05/07

MesajKonu: Geri: EVANESCENCE-My immortal...   Çarş. Haz. 06, 2007 5:21 am

akorr

Evanescence
My Immortal


Verse:
A C#m
i'm so^Å
A C#m
Suppressed^Å
A
And^Å
C#m
i wish^Å
A
Because^Å
C#m F#m
And^Å alone
C#m F#m
These^Å heal
C#m F#m
This^Å real
C#m E
there's^Å time^Å

Chorus:
F#m D E C#m
when you cried i'd wipe away ....
F#m D E C#m
when you'd scream i'd fight away ...
F#m D E C#m
and i've held your hand through ...
F#m D E A C#m A C#m
but you still have all of me

Verse
F#m
^Åchased away^Å

Chorus

Bridge:
D E E/C# D6
i've tried so hard to tell myself that you're ...
D E/C#
and though you're still ...
D6 E F#m D E C#m F#m D E C#m
i've been alone all along

Chorus
Sayfa başına dön Aşağa gitmek
Kullanıcı profilini gör
babyish
EMREAYDIN(FAN)-kROCKer
EMREAYDIN(FAN)-kROCKer
avatar

Mesaj Sayısı : 142
Yaş : 26
Kayıt tarihi : 27/05/07

MesajKonu: Geri: EVANESCENCE-My immortal...   Çarş. Haz. 06, 2007 5:22 am

My Immortal (acoustic) (guitar version)
Evanescense


Intro:(A C#m)2X

A C#m
I'm so tired of being here
A C#m
suppressed by all of my childish fears
A
and if you have to leave
C#m
I wish that you could just leave
A
because your presence still lingers here
C#m
and it won't leave me alone

Pre-CHORUS:
F#m C#m
These wounds won't seem to heal
F#m C#m
this pain is just too real
F#m C#m E
there's just too much that time cannot erase

CHORUS:
F#m D E C#m
When you cried I'd wipe away all of your tears
F#m D E C#m
When you'd scream I'd fight away all of your fears
F#m D E C#m
And I've held your hand through all of these years
F#m D E A C#m A C#m
but you still have all of me


Just like the first verse
A C#m
You used to captivate me by your resonating light
but now I'm bound by the life you left behind
Your face it haunts my once pleasant dreams
your voice it chased away all the sanity in me

Pre-CHORUS

CHORUS

D F#m E D
I've tried so hard to tell myself that you're gone
F#m C#m
but though you're still with me
D E F#m D E C#m
I've been alone all along

CHORUS
Sayfa başına dön Aşağa gitmek
Kullanıcı profilini gör
babyish
EMREAYDIN(FAN)-kROCKer
EMREAYDIN(FAN)-kROCKer
avatar

Mesaj Sayısı : 142
Yaş : 26
Kayıt tarihi : 27/05/07

MesajKonu: Geri: EVANESCENCE-My immortal...   Çarş. Haz. 06, 2007 5:23 am

My Immortal (Akustik Versiyon - Solo)
Evanescense


Intro:(A C#m)2X

A C#m
I'm so tired of being here
A C#m
suppressed by all of my childish fears
A
and if you have to leave
C#m
I wish that you could just leave
A
because your presence still lingers here
C#m
and it won't leave me alone

Pre-CHORUS:
F#m C#m
These wounds won't seem to heal
F#m C#m
this pain is just too real
F#m C#m E
there's just too much that time cannot erase

CHORUS:
F#m D E C#m
When you cried I'd wipe away all of your tears
F#m D E C#m
When you'd scream I'd fight away all of your fears
F#m D E C#m
And I've held your hand through all of these years
F#m D E A C#m A C#m
but you still have all of me


Just like the first verse
A C#m
You used to captivate me by your resonating light
but now I'm bound by the life you left behind
Your face it haunts my once pleasant dreams
your voice it chased away all the sanity in me

Pre-CHORUS

CHORUS

D F#m E D
I've tried so hard to tell myself that you're gone
F#m C#m
but though you're still with me
D E F#m D E C#m
I've been alone all along

e|----------------------------------------------------|
B|----------------------------------------------------|
G|----------------------------------------------------|
D|------7-9--7-4-4-6-4----4-7--6--7--2----------------|
A|--7-9------------------------------4----------------|
E|----------------------------------------------------|

e|----------------------------------------------------|
B|----------------------------------------------------|
G|-6-4-2-1-----------------1-2---4-6-7-6--7--6-4-2-1--|
D|---------7--4-4-6-4---------------------------------|
A|----------------------------------------------------|
E|----------------------------------------------------|

CHORUS
Sayfa başına dön Aşağa gitmek
Kullanıcı profilini gör
babyish
EMREAYDIN(FAN)-kROCKer
EMREAYDIN(FAN)-kROCKer
avatar

Mesaj Sayısı : 142
Yaş : 26
Kayıt tarihi : 27/05/07

MesajKonu: Geri: EVANESCENCE-My immortal...   Çarş. Haz. 06, 2007 5:23 am

My İmmortal (piyanonun Gitarlaştırılmış Versiyonu)
Evanescense


e)-------------------------------------------------------------------
B)-------------------8---8---8------------7----7---------------------
G)---------4-------7---7---7---7--4----7----7------------------------
D)-------------------------------------------------------------------
A)-------------------------------------------------------------------
E)-------------------------------------------------------------------
Sayfa başına dön Aşağa gitmek
Kullanıcı profilini gör
 
EVANESCENCE-My immortal...
Önceki başlık Sonraki başlık Sayfa başına dön 
1 sayfadaki 1 sayfası

Bu forumun müsaadesi var:Bu forumdaki mesajlara cevap veremezsiniz
 :: Gitar / Tab-
Buraya geçin: