AnasayfaAnasayfa  PortalliPortalli  GaleriGaleri  SSSSSS  AramaArama  Kayıt OlKayıt Ol  Üye ListesiÜye Listesi  Kullanıcı GruplarıKullanıcı Grupları  Giriş yap  

Paylaş | 
 

 çilekeş-körpe

Önceki başlık Sonraki başlık Aşağa gitmek 
YazarMesaj
rockstar
Rockkorkusu Grubu Van Temsilcisi
Rockkorkusu Grubu Van Temsilcisi
avatar

Mesaj Sayısı : 19
Kayıt tarihi : 11/05/07

MesajKonu: çilekeş-körpe   Çarş. Ağus. 01, 2007 6:36 am

Intro ( 4x Bb-B )

E- 6-6-6-6-6-6-6-6-6-6-6-7-7-7-7-7-7-7 / 6-6-6-6-6-6-6-6-6-6-6-10-10-10-10-10-10 /
B- ----------------------------------- / --------------------------------------- /
G- ----------------------------------- / --------------------------------------- /
D- ----------------------------------- / --------------------------------------- /
A- ----------------------------------- / --------------------------------------- /
E- ----------------------------------- / --------------------------------------- /

E- 6-6-6-6-6-6-6-6-6-6-6-7-7-7-7-7-7-7 / 6-6-6-6-6-6-6-6-6-6-6-6-6 /
B- ----------------------------------- / ------------------------- /
G- ----------------------------------- / ------------------------- /
D- ----------------------------------- / ------------------------- /
A- ----------------------------------- / ------------------------- /
E- ----------------------------------- / ------------------------- /


Bb B Bb G#m Bb
Duyduğunu bilmeden bağırdım arkandan
Bb B Bb G#m
Gördüğünü bilmeden ağladım



B Bb
Hani bir gün özlersen
G#m
Geri dönmek istersen gel
B
Hiç düşünme bir an bile
Bb
Bir bakışın yeter
D#m Bb
Hani bir gün özlersen
G#m
Geri dönmek istersen gel
B
Hiç düşünme bir an bile
Bb
Bir gülüşün yeter




Bb B Bb G#m Bb
Akıbetimi bilmeden yollara düştüm
Bb B Bb G#m
Umudumu yitirmeden geri döndüm




B Bb
Hani bir gün özlersen
G#m
Geri dönmek istersen gel
B
Hiç düşünme bir an bile
Bb
Bir bakışın yeter
D#m Bb
Hani bir gün özlersen
G#m
Geri dönmek istersen gel
B
Hiç düşünme bir an bile
Bb
Bir gülüşün yeter


burda solo giriyo tam olarak çıkartamadım ama mi telinde(6-7-9),
si telinde (6-7-9), sol telinde (7-Cool perdelerinde gezerek doğaçlama yapabilirsiniz...


................solo bitince yavaşlıyo..............


A- / ---------- bu yapılırken aşağıdaki sözler söyleniyo...
E- / ----------
G- / ----------
D- / ----------
A- / ---6---5--
E- / -6---7----

Hani bir gün dönersen

Gelip de beni göremezsen

Hiç üzülme bir an bile

Bir gözyaşın yeter...
Sayfa başına dön Aşağa gitmek
Kullanıcı profilini gör
 
çilekeş-körpe
Önceki başlık Sonraki başlık Sayfa başına dön 
1 sayfadaki 1 sayfası

Bu forumun müsaadesi var:Bu forumdaki mesajlara cevap veremezsiniz
 :: Gitar / Tab-
Buraya geçin: