AnasayfaAnasayfa  PortalliPortalli  GaleriGaleri  SSSSSS  AramaArama  Kayıt OlKayıt Ol  Üye ListesiÜye Listesi  Kullanıcı GruplarıKullanıcı Grupları  Giriş yap  

Paylaş | 
 

 kurban-yalan

Önceki başlık Sonraki başlık Aşağa gitmek 
YazarMesaj
rockstar
Rockkorkusu Grubu Van Temsilcisi
Rockkorkusu Grubu Van Temsilcisi
avatar

Mesaj Sayısı : 19
Kayıt tarihi : 11/05/07

MesajKonu: kurban-yalan   Çarş. Ağus. 01, 2007 6:55 am

E|0-4-5-7-7-5----------------|0-0-4-5-7-7-5----------------|
A|------------2/4-4-5-7-7-5-4|--------------2/4-4-5-7-7-5-4|
D|---------------------------|-----------------------------|
G|---------------------------|-----------------------------|
B|---------------------------|-----------------------------|
e|---------------------------|-----------------------------|

(yok yok yok..) /=slide

E|----------------------------|----------------------------|
A|----------------------------|----------------------------|
D|-0-4-5-7-7-5----------------|0-0-4-5-7-7-5---------------|
G|-------------2/4-4-5-7-7-5-4|-------------2/4-4-5-7-7-5-4|
B|----------------------------|----------------------------|
e|----------------------------|----------------------------|
(x2)
G C D C(x2)(2.soloyla aynı anda)



G C
Bana hiçbisey söyleme
G C
Ates kül oldu içimde
G C
Büyüttügüm sen zamanla
G
Yok olup bittin benimle

D C
Türkü yakip düstün mü yoluma
D C
Adimi andin mi sabah olunca
D C
Ne kaldi senden sonra elimde
D C
Alisirim elbet yokluguna..

DDD CCCCCC

E |-------|---------|
A |-------|---------|
D |-------|-------5-|
G |-5-4-3-|-5-4-3---|
B |-------|---------|
e |-------|---------|

G C D G
Yalan dostum ask diye birsey yok
G C D G
Ask dedigin üç günlük eglence
G C D G
Bilemedin bes gün sürsün
G C D G
Kapilip da sürünen çok


D D
Yalan dostum ask diye birsey yok
D D
Ask dedigin üç günlük eglence
D D
Bilemedin bes gün sürsün

Kapilip da sürünen çok


G C D G
Yalan dostum ask diye birsey yok
G C D G
Ask dedigin üç günlük eglence
G C D G
Bilemedin bes gün sürsün
G C D G
Kapilip da sürünen çok



G C D C )
Yalan dostum ask diye birsey yok ) x7
G C DDD )
Yalan dostum YOK YOK YOK
Sayfa başına dön Aşağa gitmek
Kullanıcı profilini gör
 
kurban-yalan
Önceki başlık Sonraki başlık Sayfa başına dön 
1 sayfadaki 1 sayfası
 Similar topics
-
» Cem Çelebi - Yalan Dünya(No Rapid)

Bu forumun müsaadesi var:Bu forumdaki mesajlara cevap veremezsiniz
 :: Gitar / Tab-
Buraya geçin: